ISO-10303-21;
HEADER;
FILE_DESCRIPTION (( 'STEP AP214' ),
    '1' );
FILE_NAME ('GCC-411116.STEP',
    '2020-02-15T10:10:55',
    ( 'China' ),
    ( 'Microsoft' ),
    'SwSTEP 2.0',
    'SolidWorks 2018',
    '' );
FILE_SCHEMA (( 'AUTOMOTIVE_DESIGN' ));
ENDSEC;

DATA;
#1 = FACE_OUTER_BOUND ( 'NONE', #53, .T. ) ;
#2 = LINE ( 'NONE', #78, #68 ) ;
#3 = CARTESIAN_POINT ( 'NONE',  ( 0.0000000000000000000, 0.0000000000000000000, 0.0000000000000000000 ) ) ;
#4 = ORIENTED_EDGE ( 'NONE', *, *, #199, .T. ) ;
#5 = DIRECTION ( 'NONE',  ( 0.0000000000000000000, 0.0000000000000000000, -1.000000000000000000 ) ) ;
#6 = CARTESIAN_POINT ( 'NONE',  ( -12.39999999999999325, 0.0000000000000000000, 3.000000000000000000 ) ) ;
#7 = LINE ( 'NONE', #124, #66 ) ;
#8 = DIRECTION ( 'NONE',  ( 1.000000000000000000, 0.0000000000000000000, 0.0000000000000000000 ) ) ;
#9 = CARTESIAN_POINT ( 'NONE',  ( 0.0000000000000000000, 0.0000000000000000000, 0.0000000000000000000 ) ) ;
#10 = MECHANICAL_DESIGN_GEOMETRIC_PRESENTATION_REPRESENTATION (  '', ( #117 ), #17 ) ;
#11 = ORIENTED_EDGE ( 'NONE', *, *, #191, .T. ) ;
#12 = ORIENTED_EDGE ( 'NONE', *, *, #144, .F. ) ;
#13 = PRODUCT_RELATED_PRODUCT_CATEGORY ( 'part', '', ( #74 ) ) ;
#14 = DIRECTION ( 'NONE',  ( 0.0000000000000000000, 0.0000000000000000000, 1.000000000000000000 ) ) ;
#15 = MECHANICAL_DESIGN_GEOMETRIC_PRESENTATION_REPRESENTATION (  '', ( #114 ), #170 ) ;
#16 = CIRCLE ( 'NONE', #134, 12.39999999999999325 ) ;
#17 =( GEOMETRIC_REPRESENTATION_CONTEXT ( 3 ) GLOBAL_UNCERTAINTY_ASSIGNED_CONTEXT ( ( #186 ) ) GLOBAL_UNIT_ASSIGNED_CONTEXT ( ( #166, #65, #109 ) ) REPRESENTATION_CONTEXT ( 'NONE', 'WORKASPACE' ) );
#18 = AXIS2_PLACEMENT_3D ( 'NONE', #215, #5, #157 ) ;
#19 = MANIFOLD_SOLID_BREP ( 'µ¹½Ç1', #115 ) ;
#20 = VERTEX_POINT ( 'NONE', #39 ) ;
#21 = ADVANCED_FACE ( 'NONE', ( #165 ), #24, .T. ) ;
#22 = CARTESIAN_POINT ( 'NONE',  ( -12.69999999999999929, 0.0000000000000000000, 0.2999999999999981570 ) ) ;
#23 = DIRECTION ( 'NONE',  ( -0.0000000000000000000, -0.0000000000000000000, -1.000000000000000000 ) ) ;
#24 = CONICAL_SURFACE ( 'NONE', #158, 12.39999999999999325, 0.7853981633974511656 ) ;
#25 = CARTESIAN_POINT ( 'NONE',  ( 12.39999999999999325, 1.518562030942716784E-15, 3.000000000000000000 ) ) ;
#26 = VERTEX_POINT ( 'NONE', #29 ) ;
#27 = CARTESIAN_POINT ( 'NONE',  ( 0.0000000000000000000, 0.0000000000000000000, 0.0000000000000000000 ) ) ;
#28 = DIRECTION ( 'NONE',  ( -0.0000000000000000000, -0.0000000000000000000, -1.000000000000000000 ) ) ;
#29 = CARTESIAN_POINT ( 'NONE',  ( 12.69999999999999929, 1.555301434917138433E-15, 0.2999999999999981570 ) ) ;
#30 = EDGE_LOOP ( 'NONE', ( #58, #99, #167, #12 ) ) ;
#31 = FILL_AREA_STYLE_COLOUR ( '', #54 ) ;
#32 = APPLICATION_CONTEXT ( 'automotive_design' ) ;
#33 = EDGE_LOOP ( 'NONE', ( #136, #126, #70, #147 ) ) ;
#34 = CARTESIAN_POINT ( 'NONE',  ( 0.0000000000000000000, 0.0000000000000000000, 0.2999999999999981570 ) ) ;
#35 = EDGE_CURVE ( 'NONE', #169, #26, #148, .T. ) ;
#36 = CIRCLE ( 'NONE', #189, 12.40000000000000036 ) ;
#37 = ORIENTED_EDGE ( 'NONE', *, *, #75, .F. ) ;
#38 = AXIS2_PLACEMENT_3D ( 'NONE', #44, #59, #104 ) ;
#39 = CARTESIAN_POINT ( 'NONE',  ( 12.40000000000000036, 0.0000000000000000000, 0.0000000000000000000 ) ) ;
#40 = ADVANCED_FACE ( 'NONE', ( #150 ), #146, .F. ) ;
#41 = CARTESIAN_POINT ( 'NONE',  ( -12.69999999999999929, 1.555301434917138433E-15, 0.2999999999999981570 ) ) ;
#42 = ORIENTED_EDGE ( 'NONE', *, *, #92, .F. ) ;
#43 = DIRECTION ( 'NONE',  ( -0.0000000000000000000, -0.0000000000000000000, -1.000000000000000000 ) ) ;
#44 = CARTESIAN_POINT ( 'NONE',  ( 0.0000000000000000000, 0.0000000000000000000, 0.2999999999999981570 ) ) ;
#45 = DIRECTION ( 'NONE',  ( -0.0000000000000000000, -0.0000000000000000000, 1.000000000000000000 ) ) ;
#46 = CONICAL_SURFACE ( 'NONE', #234, 12.69999999999999929, 0.7853981633974511656 ) ;
#47 = CYLINDRICAL_SURFACE ( 'NONE', #110, 12.69999999999999929 ) ;
#48 = APPLICATION_PROTOCOL_DEFINITION ( 'draft international standard', 'automotive_design', 1998, #206 ) ;
#49 = VERTEX_POINT ( 'NONE', #6 ) ;
#50 = ORIENTED_EDGE ( 'NONE', *, *, #199, .F. ) ;
#51 = DIRECTION ( 'NONE',  ( 1.000000000000000000, 0.0000000000000000000, 0.0000000000000000000 ) ) ;
#52 = EDGE_CURVE ( 'NONE', #26, #219, #211, .T. ) ;
#53 = EDGE_LOOP ( 'NONE', ( #196, #37, #86, #42 ) ) ;
#54 = COLOUR_RGB ( '',0.9411764705882352811, 0.9607843137254902244, 0.9686274509803921573 ) ;
#55 = ORIENTED_EDGE ( 'NONE', *, *, #97, .T. ) ;
#56 = EDGE_CURVE ( 'NONE', #153, #219, #88, .T. ) ;
#57 =( NAMED_UNIT ( * ) PLANE_ANGLE_UNIT ( ) SI_UNIT ( $, .RADIAN. ) );
#58 = ORIENTED_EDGE ( 'NONE', *, *, #90, .F. ) ;
#59 = DIRECTION ( 'NONE',  ( -0.0000000000000000000, -0.0000000000000000000, 1.000000000000000000 ) ) ;
#60 = CARTESIAN_POINT ( 'NONE',  ( 0.0000000000000000000, 0.0000000000000000000, 0.0000000000000000000 ) ) ;
#61 = AXIS2_PLACEMENT_3D ( 'NONE', #64, #101, #230 ) ;
#62 = DIRECTION ( 'NONE',  ( 0.0000000000000000000, 0.0000000000000000000, 1.000000000000000000 ) ) ;
#63 = CARTESIAN_POINT ( 'NONE',  ( 12.39999999999999325, 1.536931732929927411E-15, 3.000000000000000000 ) ) ;
#64 = CARTESIAN_POINT ( 'NONE',  ( 0.0000000000000000000, 0.0000000000000000000, 0.2999999999999981570 ) ) ;
#65 =( NAMED_UNIT ( * ) PLANE_ANGLE_UNIT ( ) SI_UNIT ( $, .RADIAN. ) );
#66 = VECTOR ( 'NONE', #80, 1000.000000000000000 ) ;
#67 = ORIENTED_EDGE ( 'NONE', *, *, #97, .F. ) ;
#68 = VECTOR ( 'NONE', #216, 1000.000000000000000 ) ;
#69 = EDGE_CURVE ( 'NONE', #185, #169, #236, .T. ) ;
#70 = ORIENTED_EDGE ( 'NONE', *, *, #52, .T. ) ;
#71 = ADVANCED_FACE ( 'NONE', ( #172 ), #47, .T. ) ;
#72 = FILL_AREA_STYLE ('',( #120 ) ) ;
#73 = ORIENTED_EDGE ( 'NONE', *, *, #191, .F. ) ;
#74 = PRODUCT ( 'GCC-411116', 'GCC-411116', '', ( #112 ) ) ;
#75 = EDGE_CURVE ( 'NONE', #20, #133, #36, .T. ) ;
#76 = CARTESIAN_POINT ( 'NONE',  ( 0.0000000000000000000, 0.0000000000000000000, 3.000000000000000000 ) ) ;
#77 = PRESENTATION_STYLE_ASSIGNMENT (( #96 ) ) ;
#78 = CARTESIAN_POINT ( 'NONE',  ( 12.69999999999999929, 0.0000000000000000000, 0.2999999999999981570 ) ) ;
#79 = CARTESIAN_POINT ( 'NONE',  ( 0.0000000000000000000, 0.0000000000000000000, 3.000000000000000000 ) ) ;
#80 = DIRECTION ( 'NONE',  ( -0.7071067811865495711, 0.0000000000000000000, -0.7071067811865454633 ) ) ;
#81 = CARTESIAN_POINT ( 'NONE',  ( -12.40000000000000036, 1.536931732929928200E-15, 0.0000000000000000000 ) ) ;
#82 = CARTESIAN_POINT ( 'NONE',  ( 0.0000000000000000000, 0.0000000000000000000, 2.699999999999994849 ) ) ;
#83 = EDGE_CURVE ( 'NONE', #133, #219, #188, .T. ) ;
#84 =( NAMED_UNIT ( * ) PLANE_ANGLE_UNIT ( ) SI_UNIT ( $, .RADIAN. ) );
#85 = FILL_AREA_STYLE ('',( #31 ) ) ;
#86 = ORIENTED_EDGE ( 'NONE', *, *, #135, .T. ) ;
#87 = SURFACE_SIDE_STYLE ('',( #182 ) ) ;
#88 = LINE ( 'NONE', #159, #152 ) ;
#89 = PRODUCT_DEFINITION_CONTEXT ( 'detailed design', #206, 'design' ) ;
#90 = EDGE_CURVE ( 'NONE', #185, #49, #118, .T. ) ;
#91 = ORIENTED_EDGE ( 'NONE', *, *, #135, .F. ) ;
#92 = EDGE_CURVE ( 'NONE', #219, #26, #193, .T. ) ;
#93 = ADVANCED_FACE ( 'NONE', ( #111 ), #194, .T. ) ;
#94 = DIRECTION ( 'NONE',  ( -1.000000000000000000, 0.0000000000000000000, 0.0000000000000000000 ) ) ;
#95 = ORIENTED_EDGE ( 'NONE', *, *, #144, .T. ) ;
#96 = SURFACE_STYLE_USAGE ( .BOTH. , #137 ) ;
#97 = EDGE_CURVE ( 'NONE', #133, #20, #233, .T. ) ;
#98 = FACE_OUTER_BOUND ( 'NONE', #195, .T. ) ;
#99 = ORIENTED_EDGE ( 'NONE', *, *, #69, .T. ) ;
#100 = DIRECTION ( 'NONE',  ( -0.0000000000000000000, -0.0000000000000000000, 1.000000000000000000 ) ) ;
#101 = DIRECTION ( 'NONE',  ( -0.0000000000000000000, -0.0000000000000000000, 1.000000000000000000 ) ) ;
#102 = DIRECTION ( 'NONE',  ( 0.0000000000000000000, 0.0000000000000000000, -1.000000000000000000 ) ) ;
#103 = DIRECTION ( 'NONE',  ( 1.000000000000000000, 0.0000000000000000000, 0.0000000000000000000 ) ) ;
#104 = DIRECTION ( 'NONE',  ( 1.000000000000000000, 0.0000000000000000000, 0.0000000000000000000 ) ) ;
#105 = AXIS2_PLACEMENT_3D ( 'NONE', #76, #62, #145 ) ;
#106 =( LENGTH_UNIT ( ) NAMED_UNIT ( * ) SI_UNIT ( .MILLI., .METRE. ) );
#107 = ORIENTED_EDGE ( 'NONE', *, *, #92, .T. ) ;
#108 = CARTESIAN_POINT ( 'NONE',  ( 0.0000000000000000000, 0.0000000000000000000, 0.2999999999999981570 ) ) ;
#109 =( NAMED_UNIT ( * ) SI_UNIT ( $, .STERADIAN. ) SOLID_ANGLE_UNIT ( ) );
#110 = AXIS2_PLACEMENT_3D ( 'NONE', #176, #43, #201 ) ;
#111 = FACE_OUTER_BOUND ( 'NONE', #121, .T. ) ;
#112 = PRODUCT_CONTEXT ( 'NONE', #32, 'mechanical' ) ;
#113 = APPLICATION_PROTOCOL_DEFINITION ( 'draft international standard', 'automotive_design', 1998, #32 ) ;
#114 = STYLED_ITEM ( 'NONE', ( #77 ), #19 ) ;
#115 = CLOSED_SHELL ( 'NONE', ( #21, #154, #71, #227, #171, #40, #238, #93 ) ) ;
#116 = CARTESIAN_POINT ( 'NONE',  ( 0.0000000000000000000, 0.0000000000000000000, 2.699999999999994849 ) ) ;
#117 = STYLED_ITEM ( 'NONE', ( #207 ), #141 ) ;
#118 = CIRCLE ( 'NONE', #239, 12.39999999999999325 ) ;
#119 = ORIENTED_EDGE ( 'NONE', *, *, #56, .T. ) ;
#120 = FILL_AREA_STYLE_COLOUR ( '', #223 ) ;
#121 = EDGE_LOOP ( 'NONE', ( #229, #50, #95, #73 ) ) ;
#122 = AXIS2_PLACEMENT_3D ( 'NONE', #82, #102, #161 ) ;
#123 =( LENGTH_UNIT ( ) NAMED_UNIT ( * ) SI_UNIT ( .MILLI., .METRE. ) );
#124 = CARTESIAN_POINT ( 'NONE',  ( -12.39999999999999325, 0.0000000000000000000, 3.000000000000000000 ) ) ;
#125 = DIRECTION ( 'NONE',  ( -0.7071067811865495711, 8.659560562354957510E-17, 0.7071067811865454633 ) ) ;
#126 = ORIENTED_EDGE ( 'NONE', *, *, #35, .T. ) ;
#127 = DIRECTION ( 'NONE',  ( -0.0000000000000000000, -0.0000000000000000000, -1.000000000000000000 ) ) ;
#128 = UNCERTAINTY_MEASURE_WITH_UNIT (LENGTH_MEASURE( 1.000000000000000082E-05 ), #106, 'distance_accuracy_value', 'NONE');
#129 = DIRECTION ( 'NONE',  ( 0.0000000000000000000, 0.0000000000000000000, -1.000000000000000000 ) ) ;
#130 = DIRECTION ( 'NONE',  ( -0.0000000000000000000, -0.0000000000000000000, -1.000000000000000000 ) ) ;
#131 = AXIS2_PLACEMENT_3D ( 'NONE', #27, #14, #51 ) ;
#132 = VECTOR ( 'NONE', #28, 1000.000000000000000 ) ;
#133 = VERTEX_POINT ( 'NONE', #81 ) ;
#134 = AXIS2_PLACEMENT_3D ( 'NONE', #79, #217, #103 ) ;
#135 = EDGE_CURVE ( 'NONE', #20, #26, #2, .T. ) ;
#136 = ORIENTED_EDGE ( 'NONE', *, *, #151, .T. ) ;
#137 = SURFACE_SIDE_STYLE ('',( #184 ) ) ;
#138 = CIRCLE ( 'NONE', #122, 12.69999999999999929 ) ;
#139 = VECTOR ( 'NONE', #125, 1000.000000000000000 ) ;
#140 = PRODUCT_DEFINITION ( 'Î´Öª', '', #163, #89 ) ;
#141 = ADVANCED_BREP_SHAPE_REPRESENTATION ( 'GCC-411116', ( #19, #131 ), #209 ) ;
#142 = DIRECTION ( 'NONE',  ( -0.0000000000000000000, -0.0000000000000000000, -1.000000000000000000 ) ) ;
#143 = DIRECTION ( 'NONE',  ( 1.000000000000000000, 0.0000000000000000000, 0.0000000000000000000 ) ) ;
#144 = EDGE_CURVE ( 'NONE', #49, #153, #7, .T. ) ;
#145 = DIRECTION ( 'NONE',  ( 1.000000000000000000, 0.0000000000000000000, -0.0000000000000000000 ) ) ;
#146 = PLANE ( 'NONE',  #231 ) ;
#147 = ORIENTED_EDGE ( 'NONE', *, *, #56, .F. ) ;
#148 = LINE ( 'NONE', #156, #132 ) ;
#149 = EDGE_LOOP ( 'NONE', ( #67, #225, #237, #91 ) ) ;
#150 = FACE_OUTER_BOUND ( 'NONE', #214, .T. ) ;
#151 = EDGE_CURVE ( 'NONE', #153, #169, #210, .T. ) ;
#152 = VECTOR ( 'NONE', #23, 1000.000000000000000 ) ;
#153 = VERTEX_POINT ( 'NONE', #218 ) ;
#154 = ADVANCED_FACE ( 'NONE', ( #175 ), #46, .T. ) ;
#155 = AXIS2_PLACEMENT_3D ( 'NONE', #108, #45, #232 ) ;
#156 = CARTESIAN_POINT ( 'NONE',  ( 12.69999999999999929, 1.555301434917138433E-15, 3.000000000000000000 ) ) ;
#157 = DIRECTION ( 'NONE',  ( -1.000000000000000000, 0.0000000000000000000, 0.0000000000000000000 ) ) ;
#158 = AXIS2_PLACEMENT_3D ( 'NONE', #190, #213, #94 ) ;
#159 = CARTESIAN_POINT ( 'NONE',  ( -12.69999999999999929, 0.0000000000000000000, 3.000000000000000000 ) ) ;
#160 = DIRECTION ( 'NONE',  ( 0.0000000000000000000, 0.0000000000000000000, 1.000000000000000000 ) ) ;
#161 = DIRECTION ( 'NONE',  ( 1.000000000000000000, 0.0000000000000000000, 0.0000000000000000000 ) ) ;
#162 = DIRECTION ( 'NONE',  ( 1.000000000000000000, 0.0000000000000000000, -0.0000000000000000000 ) ) ;
#163 = PRODUCT_DEFINITION_FORMATION_WITH_SPECIFIED_SOURCE ( 'ÈÎºÎ', '', #74, .NOT_KNOWN. ) ;
#164 = CONICAL_SURFACE ( 'NONE', #155, 12.69999999999999929, 0.7853981633974511656 ) ;
#165 = FACE_OUTER_BOUND ( 'NONE', #30, .T. ) ;
#166 =( LENGTH_UNIT ( ) NAMED_UNIT ( * ) SI_UNIT ( .MILLI., .METRE. ) );
#167 = ORIENTED_EDGE ( 'NONE', *, *, #151, .F. ) ;
#168 = AXIS2_PLACEMENT_3D ( 'NONE', #116, #129, #8 ) ;
#169 = VERTEX_POINT ( 'NONE', #179 ) ;
#170 =( GEOMETRIC_REPRESENTATION_CONTEXT ( 3 ) GLOBAL_UNCERTAINTY_ASSIGNED_CONTEXT ( ( #226 ) ) GLOBAL_UNIT_ASSIGNED_CONTEXT ( ( #123, #57, #240 ) ) REPRESENTATION_CONTEXT ( 'NONE', 'WORKASPACE' ) );
#171 = ADVANCED_FACE ( 'NONE', ( #98 ), #220, .T. ) ;
#172 = FACE_OUTER_BOUND ( 'NONE', #33, .T. ) ;
#173 = ORIENTED_EDGE ( 'NONE', *, *, #35, .F. ) ;
#174 = PRODUCT_DEFINITION_SHAPE ( 'NONE', 'NONE',  #140 ) ;
#175 = FACE_OUTER_BOUND ( 'NONE', #149, .T. ) ;
#176 = CARTESIAN_POINT ( 'NONE',  ( 0.0000000000000000000, 0.0000000000000000000, 3.000000000000000000 ) ) ;
#177 = CARTESIAN_POINT ( 'NONE',  ( 0.0000000000000000000, 0.0000000000000000000, 3.000000000000000000 ) ) ;
#178 = DIRECTION ( 'NONE',  ( 1.000000000000000000, 0.0000000000000000000, 0.0000000000000000000 ) ) ;
#179 = CARTESIAN_POINT ( 'NONE',  ( 12.69999999999999929, 1.555301434917138433E-15, 2.699999999999994849 ) ) ;
#180 = AXIS2_PLACEMENT_3D ( 'NONE', #177, #127, #197 ) ;
#181 = DIRECTION ( 'NONE',  ( 0.7071067811865495711, 8.659560562354956277E-17, -0.7071067811865454633 ) ) ;
#182 = SURFACE_STYLE_FILL_AREA ( #85 ) ;
#183 =( NAMED_UNIT ( * ) SI_UNIT ( $, .STERADIAN. ) SOLID_ANGLE_UNIT ( ) );
#184 = SURFACE_STYLE_FILL_AREA ( #72 ) ;
#185 = VERTEX_POINT ( 'NONE', #63 ) ;
#186 = UNCERTAINTY_MEASURE_WITH_UNIT (LENGTH_MEASURE( 1.000000000000000082E-05 ), #166, 'distance_accuracy_value', 'NONE');
#187 = SHAPE_DEFINITION_REPRESENTATION ( #174, #141 ) ;
#188 = LINE ( 'NONE', #41, #139 ) ;
#189 = AXIS2_PLACEMENT_3D ( 'NONE', #60, #142, #143 ) ;
#190 = CARTESIAN_POINT ( 'NONE',  ( 0.0000000000000000000, 0.0000000000000000000, 3.000000000000000000 ) ) ;
#191 = EDGE_CURVE ( 'NONE', #169, #153, #138, .T. ) ;
#192 = CYLINDRICAL_SURFACE ( 'NONE', #180, 12.69999999999999929 ) ;
#193 = CIRCLE ( 'NONE', #38, 12.69999999999999929 ) ;
#194 = CONICAL_SURFACE ( 'NONE', #18, 12.39999999999999325, 0.7853981633974511656 ) ;
#195 = EDGE_LOOP ( 'NONE', ( #4, #205 ) ) ;
#196 = ORIENTED_EDGE ( 'NONE', *, *, #83, .F. ) ;
#197 = DIRECTION ( 'NONE',  ( -1.000000000000000000, 0.0000000000000000000, 0.0000000000000000000 ) ) ;
#198 = CARTESIAN_POINT ( 'NONE',  ( 0.0000000000000000000, 0.0000000000000000000, 3.000000000000000000 ) ) ;
#199 = EDGE_CURVE ( 'NONE', #49, #185, #16, .T. ) ;
#200 = DIRECTION ( 'NONE',  ( 1.000000000000000000, 0.0000000000000000000, 0.0000000000000000000 ) ) ;
#201 = DIRECTION ( 'NONE',  ( -1.000000000000000000, 0.0000000000000000000, 0.0000000000000000000 ) ) ;
#202 = AXIS2_PLACEMENT_3D ( 'NONE', #3, #130, #178 ) ;
#203 = FACE_OUTER_BOUND ( 'NONE', #212, .T. ) ;
#204 = VECTOR ( 'NONE', #181, 1000.000000000000000 ) ;
#205 = ORIENTED_EDGE ( 'NONE', *, *, #90, .T. ) ;
#206 = APPLICATION_CONTEXT ( 'automotive_design' ) ;
#207 = PRESENTATION_STYLE_ASSIGNMENT (( #235 ) ) ;
#208 = ORIENTED_EDGE ( 'NONE', *, *, #75, .T. ) ;
#209 =( GEOMETRIC_REPRESENTATION_CONTEXT ( 3 ) GLOBAL_UNCERTAINTY_ASSIGNED_CONTEXT ( ( #128 ) ) GLOBAL_UNIT_ASSIGNED_CONTEXT ( ( #106, #84, #183 ) ) REPRESENTATION_CONTEXT ( 'NONE', 'WORKASPACE' ) );
#210 = CIRCLE ( 'NONE', #168, 12.69999999999999929 ) ;
#211 = CIRCLE ( 'NONE', #61, 12.69999999999999929 ) ;
#212 = EDGE_LOOP ( 'NONE', ( #173, #11, #119, #107 ) ) ;
#213 = DIRECTION ( 'NONE',  ( 0.0000000000000000000, 0.0000000000000000000, -1.000000000000000000 ) ) ;
#214 = EDGE_LOOP ( 'NONE', ( #208, #55 ) ) ;
#215 = CARTESIAN_POINT ( 'NONE',  ( 0.0000000000000000000, 0.0000000000000000000, 3.000000000000000000 ) ) ;
#216 = DIRECTION ( 'NONE',  ( 0.7071067811865495711, 0.0000000000000000000, 0.7071067811865454633 ) ) ;
#217 = DIRECTION ( 'NONE',  ( 0.0000000000000000000, 0.0000000000000000000, 1.000000000000000000 ) ) ;
#218 = CARTESIAN_POINT ( 'NONE',  ( -12.69999999999999929, 0.0000000000000000000, 2.699999999999994849 ) ) ;
#219 = VERTEX_POINT ( 'NONE', #22 ) ;
#220 = PLANE ( 'NONE',  #105 ) ;
#221 = PRESENTATION_LAYER_ASSIGNMENT (  '', '', ( #117 ) ) ;
#222 = DIRECTION ( 'NONE',  ( 1.000000000000000000, 0.0000000000000000000, 0.0000000000000000000 ) ) ;
#223 = COLOUR_RGB ( '',0.9411764705882352811, 0.9607843137254902244, 0.9686274509803921573 ) ;
#224 = PRESENTATION_LAYER_ASSIGNMENT (  '', '', ( #114 ) ) ;
#225 = ORIENTED_EDGE ( 'NONE', *, *, #83, .T. ) ;
#226 = UNCERTAINTY_MEASURE_WITH_UNIT (LENGTH_MEASURE( 1.000000000000000082E-05 ), #123, 'distance_accuracy_value', 'NONE');
#227 = ADVANCED_FACE ( 'NONE', ( #203 ), #192, .T. ) ;
#228 = DIRECTION ( 'NONE',  ( 0.0000000000000000000, 0.0000000000000000000, 1.000000000000000000 ) ) ;
#229 = ORIENTED_EDGE ( 'NONE', *, *, #69, .F. ) ;
#230 = DIRECTION ( 'NONE',  ( 1.000000000000000000, 0.0000000000000000000, 0.0000000000000000000 ) ) ;
#231 = AXIS2_PLACEMENT_3D ( 'NONE', #9, #160, #162 ) ;
#232 = DIRECTION ( 'NONE',  ( 1.000000000000000000, 0.0000000000000000000, 0.0000000000000000000 ) ) ;
#233 = CIRCLE ( 'NONE', #202, 12.40000000000000036 ) ;
#234 = AXIS2_PLACEMENT_3D ( 'NONE', #34, #100, #222 ) ;
#235 = SURFACE_STYLE_USAGE ( .BOTH. , #87 ) ;
#236 = LINE ( 'NONE', #25, #204 ) ;
#237 = ORIENTED_EDGE ( 'NONE', *, *, #52, .F. ) ;
#238 = ADVANCED_FACE ( 'NONE', ( #1 ), #164, .T. ) ;
#239 = AXIS2_PLACEMENT_3D ( 'NONE', #198, #228, #200 ) ;
#240 =( NAMED_UNIT ( * ) SI_UNIT ( $, .STERADIAN. ) SOLID_ANGLE_UNIT ( ) );
ENDSEC;
END-ISO-10303-21;
